Тексты песен и переводы / Аквариум / Здравствуй, моя Смерть (Тема для новой войны)

Текст песни Аквариум - Здравствуй, моя Смерть (Тема для новой войны)

(Слова песни и текст песни Аквариум - Здравствуй, моя Смерть (Тема для новой войны))



Тема для новой войны

intro:
1|-4------4----4-------2---------------4--4----4--4---
2|--4----4--4---4-----2-----2----2----4-4--4--4-4--4--
3|------4----4-------2-----2----2----4---4---4---4----
4|--------------------------------0--6-------7--------
5|----7------------0-----0----4-----------------------
6|---------7------------------------------------------

1|------2---2----------------4--4----4--4------2-
2|-----2-2---2---2----2-----4-4--4--4-4--4----2--
3|----2---2-----2----2-----4---4---4---4-----2---
4|---------------------0--6-------7--------------
5|--0---------0----4------------------------0----
6|-----------------------------------------------

A C#m
Здравствуй, моя смерть,
A F#m
Я рад, что мы говорим на одном языке.
G Hm
Мне часто нужен был кто-то, кому все равно,
Кто я сейчас,
G C Em Am
Кто знает меня и откроет мне двери домой;
A G
Учи меня в том, что может быть сказано мной.
A Em
Учи меня - слова безразличны, как нож.
G Hm
А тот, кто хочет любви, беззащитен вдвойне,
G C Em Am
И не зная тебя, движется словно впотьмах -
Em7 Em* D
И каждый говорит о любви в словах,
Em7 Em* D
Каждый видит прекрасные сны,
Em7 Em* D G
Каждый уверен, что именно он - источник огня,
5|-1-----1-----------------2-
И это - тема для новой войны.

A Em x3

Здравствуй, моя смерть, спасибо за то, что ты есть;
Мой торжественный город еще не проснулся от сна.
Пока мы здесь и есть еще время делать движенья любви,
Нужно оставить чистой тропу к роднику;
И кто-то ждет нас на том берегу,
Кто-то взглянет мне прямо в глаза,
Но я слышал песню, в ней пелось:
"Делай, что должен, и будь, что будет", -
Мне кажется, это удачный ответ на вопрос;
Но каждый из нас торгует собой всерьез,
Чтобы купить себе продолженье весны.
И каждый в душе сомневается в том, что он прав,
И это - тема для новой войны.

A Em x6

Перевод песни Аквариум - Здравствуй, моя Смерть (Тема для новой войны)

(Перевод текста песни Аквариум - Здравствуй, моя Смерть (Тема для новой войны) на английский #english version, на английском языке)



Theme for a new war

intro:
1|-4------4----4-------2---------------4--4----4--4---
2|--4----4--4---4-----2-----2----2----4-4--4--4-4--4--
3|------4----4-------2-----2----2----4---4---4---4----
4|--------------------------------0--6-------7--------
5|----7------------0-----0----4-----------------------
6|---------7------------------------------------------

1|------2---2----------------4--4----4--4------2-
2|-----2-2---2---2----2-----4-4--4--4-4--4----2--
3|----2---2-----2----2-----4---4---4---4-----2---
4|---------------------0--6-------7--------------
5|--0---------0----4------------------------0----
6|-----------------------------------------------

A C#m
Hello, my death,
A F#m
I am glad that we speak the same language.
G Hm
I often need someone who don't care,
Who am I now,
G C Em Am
Who knows me and will open the doors of my home;
A G
Tell me in what may be said by me.
A Em
Teach me the words are indifferent, like a knife.
G Hm
And one who wants to love, doubly vulnerable,
G C Em Am
And not knowing you, moving as if in the dark -
Em7 Em D*
And everyone is talking about love in words,
Em7 Em D*
Everyone sees wonderful dreams,
Em7 Em D G*
Everybody is convinced that he is the source of the fire,
5|-1-----1-----------------2-
And this is a topic for a new war.

A Em x3

Hello, my death, thank you for what you are;
My solemn city did not Wake up from sleep.
While we are here and there is still time to do the movements of love,
You need to leave a clean path to the spring;
And someone is waiting for us on the other side,
Somebody look me straight in the eye,
But I heard the song, it sang:
"Do what you can, and let it be," -
It seems to me, this is a good answer to the question;
But each of us sells them seriously,
To buy a continued spring.
And everyone in the soul of a doubt that he is right,
And this is a topic for a new war.

A Em x6


Посмотреть популярные тексты песен и переводы Аквариум:
Ещё песни этого исполнителя: Аквариум (все тексты песен и переводы)

Не знаете кто поет песню Здравствуй, моя Смерть (Тема для новой войны)? Ответ прост, это Аквариум. Найти слова к музыке, текст песни и иногда даже аккорды здесь не сложно, обычно чтобы найти песню по словам, нужно ввести в поиске пару слов из песни и нажать кнопку поиск. Можете теперь использовать текст и слова этой песни в караоке или просто подпевать, включив свой mp3 плеер. Не нужно пытатся перевести песню на русский или английский язык, перевод песни Аквариум - Здравствуй, моя Смерть (Тема для новой войны) уже есть на текстпесни2.ру, а скачать текст песни т.е lyrics можно выделив его мышкой.
Просмотров за все время у Аквариум - Здравствуй, моя Смерть (Тема для новой войны): [65]