Тексты песен и переводы / неизвестен / Стены моя крепость

Текст песни неизвестен - Стены моя крепость

(Слова песни и текст песни неизвестен - Стены моя крепость)



Em C Am H7 Em C
1. Я закрою шторами окно,
Am H7 Em С
Чтобы не видеть больше ни-че-гооо
Am H7 Em
Я так устал мне все равно.

Припев: Em C
Стены моя крепость
Am H7 Em C Am H7
А я за стенами сижу-У сижу-у сижу-у
Em C
Стены моя крепость
Am H7 Em C Am
Покой за ними нахожу-у хожу-у хожу-у

2. День ты мною прожит как всегда
Все время бесконечные суета
Везде преследует меня.
Припев:
3. Мир ты так безжалостен ко мне
Совсем другим ты представлялся мне-е
Все это было как во сне

Припев:
4. Смерть зачем забрала ты любовь мою
Жить без которой не могу
Закройте дверь я ухожу.
Припев:


Перебор:

Em С Am H7 Em
1----------------------------------------------2-----------------------------------
2--------0------------1-----------1--------------------------0---------------------
3-----0-------------0-----------2-----------2-------------0------------------------
4-0--2---------0------------------------------------1--2---------------------------
5-----------------3-------3--0--------0--2------------------------------------------

Перевод песни неизвестен - Стены моя крепость

(Перевод текста песни неизвестен - Стены моя крепость на английский #english version, на английском языке)



Em C Am H7 Em C
1. I close the curtains of the window,
Am H7 Em With
Not to see any more-che-гооо
Am H7 Em
I'm so tired of all the same to me.

Chorus: Em C
The walls of my castle
Am H7 Em C Am H7
And I'm behind the walls of a sit-In sit in sit-in
Em C
The walls of my castle
Am H7 Em C Am
Peace for them find-a walk-in walk-in

2. The day you I lived through as always
All the time the endless bustle
Everywhere haunts me.
Chorus:
3. The world you're so cruel to me
Another you seemed to me-e
It was all like a dream

Chorus:
4. The death of why took you my love
Live without which can not
Close the door I go.
Chorus:


Bust:

Em Am H7 Em
1----------------------------------------------2-----------------------------------
2--------0------------1-----------1--------------------------0---------------------
3-----0-------------0-----------2-----------2-------------0------------------------
4-0--2---------0------------------------------------1--2---------------------------
5-----------------3-------3--0--------0--2------------------------------------------


Посмотреть популярные тексты песен и переводы неизвестен:
Ещё песни этого исполнителя: неизвестен (все тексты песен и переводы)

Не знаете кто поет песню Стены моя крепость? Ответ прост, это неизвестен. Найти слова к музыке, текст песни и иногда даже аккорды здесь не сложно, обычно чтобы найти песню по словам, нужно ввести в поиске пару слов из песни и нажать кнопку поиск. Можете теперь использовать текст и слова этой песни в караоке или просто подпевать, включив свой mp3 плеер. Не нужно пытатся перевести песню на русский или английский язык, перевод песни неизвестен - Стены моя крепость уже есть на текстпесни2.ру, а скачать текст песни т.е lyrics можно выделив его мышкой.
Просмотров за все время у неизвестен - Стены моя крепость: [98]