Тексты песен и переводы / JANE AIR / Апокалипсис уже за тобой (Single 2009/text+tabs)

Текст песни JANE AIR - Апокалипсис уже за тобой (Single 2009/text+tabs)

(Слова песни и текст песни JANE AIR - Апокалипсис уже за тобой (Single 2009/text+tabs))



АПОКАЛИПСИС УЖЕ ЗА ТОБОЙ

Переплетаются ноги девичьи, над его головой нимб,
Густеет кровь и любовь
Героинь его качающихся в такт по комнате в жарком мареве
Он не святой нет, это винт, винт
Сбился бинт
Ди-джей царапает пластинки где-то в углу это afterparty
Здесь плавятся платья, горят шторы
Девочки стонут, заняты кровати, пепел летит вверх (Вверх!)

Стены рисуют узоры на ткани
На полу в бреду в белом саване
Прячутся демоны по углам
Ему не найти их пока не зайдёт солнце
Страха нет
Он сам такой же демон
Вселяет в души людей золото
И запах ладана
И тысячи людей идут за ним
Верные как псы
Со стволами у виска
Идут к обрыву овцами
Ты же рок-звезда
Хочешь, сгори заживо
Но признайся, что тебе плевать на тех, кто идёт за тобой

Апокалипсис уже здесь
Апокалипсис уже за тобой
Он горел, и в пламени его горели все
Миллиард за одного
Как мотыльки по велению его руки мы летели на свет
И налетали на штыки
Последний демон корчит рожи и брызжет слюной
Апокалипсис уже за тобой

Свет
Огни
Гаснут города один за одним
Луч
Земли
Сын неба спустится в самый ад

Ты
Один
Можешь смотреть в глаза
Тем, кого встретишь там
И пойдёшь по языкам пламени
Флаги спустят
Католики и православные
Ослеплённые твоим
Искусством прятаться
В сердцах людей
И там выкрадывать самое главное
Пробуждается кратер
Пот течёт по лбу, глаза режет дым
И мы встаём с колен и идём вслед за ним

И припев...
______________________________________________________

1E---------------------------3/5-5/7-5--3--1h3p1--0h1p0------------
2B----------------5-6-6/7-------------------------------------3h5p3----
3G--5-4^---5-4----------------------------------------------------------
4D--------5----------------------------------------------------------------

1E--0h1p0--1h3--1-0h1p0-1-1-3-1-0-1-3-1--0--------------------------
2B-----------------------------------------------------3-1-0--1-0------------
3G------------------------------------------------------------------2^-0--<5>
4D--------------------------------------------------------------------------<5>

3G--7^7-------------------------||||--7xx8-7xx8xxxxxx8-7xxxx-5-5-8-||||
4D--------------------------------||||---------------------------------------||||
5A--5^5-------------------------||||--5xx6-5xx6xxxxxx6-5xxxx-3-3-6-||||
6D--------12 """ ' '^ " '' "" ' ' '--||||---------------------------------------||||

2B--8 ' ' " ' " ' ' " ' --------- --8 ' ' " ' " ' ' " '-------|| ------------------------
3G--7 ' ' " ' " ' ' " ' --------- --7 ' ' " ' " ' ' " '-------|| --7 ' ' " ' " ' ' " ' -------
4D--5 ' ' " ' " ' ' " ' 3-3-6-- --5 ' ' " ' " ' ' " ' 3-3--|| --5 ' ' " ' " ' ' " ' 3-3-6--
5A--5 ' ' " ' " ' ' " ' 3-3-6-- --5 ' ' " ' " ' ' " ' 3-3--|| --5 ' ' " ' " ' ' " ' 3-3-6--
6D--5 ' ' " ' " ' ' " ' 3-3-6-- --5 ' ' " ' " ' ' " ' 3-3--|| --5 ' ' " ' " ' ' " ' 3-3-6--

2B---6-8--8-10--10-11----6-8-----------------------||||
3G--------------------------------5-7------------------||||
4D-------------------------------------7-8-------------||||
5A----------------------------------------------3-3-6--||||
6D----------------------------------------------3-3-6--||||

Перевод песни JANE AIR - Апокалипсис уже за тобой (Single 2009/text+tabs)

(Перевод текста песни JANE AIR - Апокалипсис уже за тобой (Single 2009/text+tabs) на английский #english version, на английском языке)



THE APOCALYPSE IS ALREADY BEHIND YOU

Entwined legs girls, over his head a nimbus,
Thickens the blood and love
The heroines of his swaying to the beat of the room in the hot haze
He is not a Saint not, it is screw, screw
Lost bandage
DJ scratch the record somewhere in the corner of this afterparty
Here melt dresses, burn blinds
Girls moaning, busy bed, ash flies up (Up!)

Wall paint designs on fabrics
On the floor in delirium in a white shroud
Hiding in the corners of the demons
He did not find them until the sun goes down
There is no fear
He himself is the same demon
Instills in people's souls gold
And the smell of incense
And thousands of people follow him
The faithful as the dogs
With guns at the temple
Go to the edge of the sheep
You're a rock star
Want to burn alive
But admit it, that you spit on those who come after you

The Apocalypse is here
The Apocalypse is already behind you
He burned, and the flame of his burned all
Billion for the one
Like moths to the dictates of his hand we were heading for the light
And flown on bayonets
Last demon making faces and splashed saliva
The Apocalypse is already behind you

Light
Lights
Going out of the city one by one
Beam
Earth
The son of heaven come down to the hell

You
One
You can look in the eyes
Those who meet there
And go in flames
Flags thrown
Catholics and Orthodox
Blinded by your
The art of hiding
In the hearts of men
And there stealing the most important thing
Awakens crater
The sweat flowing on the forehead, the eyes cut the smoke
And we get up from the knees and go after him

And the chorus...
______________________________________________________

1E---------------------------3/5-5/7-5--3--1h3p1--0h1p0------------
2B----------------5-6-6/7-------------------------------------3h5p3----
3G--5-4^---5-4----------------------------------------------------------
4D--------5----------------------------------------------------------------

1E--0h1p0--1h3--1-0h1p0-1-1-3-1-0-1-3-1--0--------------------------
2B-----------------------------------------------------3-1-0--1-0------------
3G------------------------------------------------------------------2^-0--<5>
4D--------------------------------------------------------------------------<5>

3G--7^7-------------------------||||--7xx8-7xx8xxxxxx8-7xxxx-5-5-8-||||
4D--------------------------------||||---------------------------------------||||
5A--5^5-------------------------||||--5xx6-5xx6xxxxxx6-5xxxx-3-3-6-||||
6D--------12 """ ' '^ &" ; '' "" ' ' '--||||---------------------------------------||||

2B--8 ' ' " ' " ' ' &" ; ' --------- --8 ' ' " ' " ' ' " '-------|| ------------------------
3G--7 ' ' " ' " ' ' &" ; ' --------- --7 ' ' " ' " ' ' &" ; '-------|| --7 ' ' " ' " ' ' " ' -------
4D--5 ' ' " ' " ' ' " ' 3-3-6-- --5 ' ' " ' " ' ' " ' 3-3--|| --5 ' ' " ' " ' ' " ' 3-3-6--
5A--5 ' ' " ' " ' ' " ' 3-3-6-- --5 ' ' " ' " ' ' " ' 3-3--|| --5 ' ' " ' " ' ' " ' 3-3-6--
6D--5 ' ' " ' " ' ' " ' 3-3-6-- --5 ' ' " ' " ' ' " ' 3-3--|| --5 ' ' " ' " ' ' " ' 3-3-6--

2B---6-8--8-10--10-11----6-8-----------------------||||
3G--------------------------------5-7------------------||||
4D-------------------------------------7-8-------------||||
5A----------------------------------------------3-3-6--||||
6D----------------------------------------------3-3-6--||||


Посмотреть популярные тексты песен и переводы JANE AIR:
Ещё песни этого исполнителя: JANE AIR (все тексты песен и переводы)

Не знаете кто поет песню Апокалипсис уже за тобой (Single 2009/text+tabs)? Ответ прост, это JANE AIR. Найти слова к музыке, текст песни и иногда даже аккорды здесь не сложно, обычно чтобы найти песню по словам, нужно ввести в поиске пару слов из песни и нажать кнопку поиск. Можете теперь использовать текст и слова этой песни в караоке или просто подпевать, включив свой mp3 плеер. Не нужно пытатся перевести песню на русский или английский язык, перевод песни JANE AIR - Апокалипсис уже за тобой (Single 2009/text+tabs) уже есть на текстпесни2.ру, а скачать текст песни т.е lyrics можно выделив его мышкой.
Просмотров за все время у JANE AIR - Апокалипсис уже за тобой (Single 2009/text+tabs): [87]